Wanted Dead Or Alive Solo (de Bon Jovi)
(www.acordesytabs.com)

------------------------------------------------
| WANTED DEAD OR ALIVE SOLO: by Richie Sambora |
------------------------------------------------



FOR THIS SOLO JUST CRANK YOUR AMP UP ALL THE WAY AND TRY TO SQUELL OUT EVERY HAR
AND BEND THE STRINGS LIKE CRAZY, LISTEN TO HOW RICHIE PLAYS IT AND YOU WILL SEE 
I AM TALKING ABOUT. HES DAMN GOOD TOO...



e:---------------------------------------------------------13-15--15b7-15b7-13-1
B:----------------------------------------------------13-15---------------------
G:-----------------------------------------------12-14--------------------------
D:-x--75/7--7-5/7--7/5----3-5b7-5b7*-5b7-5b7-3--------------------------------
A:-x--53/7--5-3/5--5/3--------------------------------------------------------
E:------------------------------------------------------------------------------
                                p.h.*                    (bend the shit out of e



e:------------------------------------------------------------------------------
B:------------------------------------------------------------------------------
G:------------------------------------------------------------------------------
D:--10---------5/5---------3------------3--5--5b7--7b5--3---0-3p0--0-3--5b7-5b7-
A:---8-0--53--3/7----3--5---5--0--3--5---------------------------3-------------
E:------------------------------------------------------------------------------
                  p.m.---(p.h.)----------| p.h. p.h.       p.m.-------| p.h. p.h


e:------------------------------------------|
B:------------------------------------------|
G:------------------------------------------|
D:--12---10---7---5/7-----------------------|
A:--10-0--8-0-5-0-3/5-----------------------|
E:------------------------------------------|


P.H.=PICK HARMONIC
P.M.=PALM MUTE
b=BEND
/=SLIDE UP
=SLIDE DOWN



THERE ARE ALREADY ALOT OF DEAD OR ALIVE SOLOS OUT THERE THAT ARE PRETTY GOOD SO 
POST YOUR OWN.

-dR_fEELGoOD