Atado a tu amor (de Chayanne)
(www.acordesytabs.com)
Este es el intro de la canción y leva un ritmo lento


7---7---5---7---8---5---7---7---5---7---5---2---3---3--
8---8---7---8--10---7---8---8---7---8---7---3---5---5--
-------------------------------------------------------
-------------------------------------------------------
-------------------------------------------------------
-------------------------------------------------------



2---7---3-------0-------0-------0----------------------
3---8---5---3---1---3---1---3---1---3---1---0---3------
------------4-------4-------4-------4---2---1---4------
-------------------------------------------------------
-------------------------------------------------------
-------------------------------------------------------