Azul y negro (de Walter Giardino)
(www.acordesytabs.com)
e---------------------------------------------------------------------------
B--12~-12-13-15-13b-13-12--7--5-7-8-7b-7-5-4p5h4------4-4-7-8-7-5-----10br--
G------------------------------------------------4--~~------------5---------
D---------------------------------------------------------------------------
A---------------------------------------------------------------------------
E---------------------------------------------------------------------------

e------------------------------12-14-14b--14br-12-----17br------------------
B-12-15-15br--------------------------------------13---------15b---------12-
G------------12-14-12-11b--11--------------------------------------12-14----
D---------------------------------------------------------------------------
A---------------------------------------------------------------------------
E---------------------------------------------------------------------------

e---------------------------------------------------------------------------
B-10b--10-8-7---------7-----10br-8-10---17-15-17-13-17-15-17-13-15-15p13p12-
G--------------8--8-6---8-6-------------------------------------------------
D---------------------------------------------------------------------------
A---------------------------------------------------------------------------
E---------------------------------------------------------------------------

e-----14------12-14-15--15b--15rp14p12h14~--12-14-18b--
B-15b----15b--------------------------------------------
G-------------------------------------------------------
D-------------------------------------------------------
A-------------------------------------------------------
E-------------------------------------------------------