Basta Fuerte (de Divididos)
(www.acordesytabs.com)
Basta Fuerte, por Divididos

Intro y versos:
G|-----------------------------------------------|
D|-----------------------------------------------|
A|--------------5-3-5-5---5--4--3--2-------------|
E|-2--3--4--5--------------------------2-2-0-2-0-| 
repetir las veces necesarias 

Partes habladas (al comienzo de cada parte):
G|---|
D|---|
A|---|
E|-0-|
   
Solo (no estoy muy seguro):
G|-----9-------------9-------7899-|
D|------------------------799-----|
A|-7-77-77-7777--7-77-77----------|
E|--------------------------------|repetir las veces 
necesarias

Final:
G|-------------|
D|-------------|
A|-------------|
E|-0--3--0--/5-|repetir las veces necesarias