Cajita Musical (de Divididos)
(www.acordesytabs.com)
Esto se utiliza en la intro, el verso, el puente y el final                                                                               
|--5----7----5----7----5--7--|--5----7----5----7----5--4--|
|----------------------------|----------------------------|
|-----5----5----5----5-------|-----5----5----5----5-------|
|----------------------------|----------------------------|


Y este es el estribillo                                                        
|---------------------------|---------------------------|
|----------------2--4--2-4--|----------------2--4--2-4--|
|-------------4-------------|-------------4-------------|
|--2--2--5-5----------------|--2--2--5-5----------------|
                                                          
|---------------------------|-----------------------------|
|---------------------------|--------5-5-----2------------|
|--------2-2--3--3--4--4-5--|-------------5-----5-3-2-----|
|--3--3---------------------|--3--3-------------------5-3-|
                                                        
|---------------------------|---------------------------|
|----------------2--4--2-4--|----------------2--4--2-4--|
|-------------4-------------|-------------4-------------|
|--2--2--5-5----------------|--2--2--5-5----------------|
                                                                 
|---------------------------|--------------------|
|---------------------------|----3---------------|
|--------2-2--3--3--4--4-5--|--------------------|
|--3--3---------------------|--1-----------------|

Suena joya