Cara luna (de Bacilos)
(www.acordesytabs.com)
 Las notas bases de esta cancion son: La, Mi, F#m, Re

   La          Mi        F#m        Re
G---------/----------/----------/----------/--
D---------/---2------/---4------/----------/--
A---------/----------/----------/---5------/--
E----5----/----------/----------/----------/--
            
Verso:
 
G-------/------/-------/--
D-------/---2--/-------/--
A-------/------/---5---/--
E---5---/------/-------/--

Coro:

G-----/-----/-----/-----/--
D-----/--2--/--4--/-----/--
A-----/-----/-----/--5--/--
E--5--/-----/-----/-----/--

        Ustedes le ponen el filing y descubren algunas
       escalitas que hay en la cancion, pero no es dificil.

   ¿mi mali?  quinork@hotmail.com