Cinco Estrellas (de Attaque 77)
(www.acordesytabs.com)
Base 1
e-----------------------------------------
B-----------------------------------------
G-----------------------------------------
D-14-x--12--14-x--12--14-x--12--10-x--12--
A-14-x--12--14-x--12--14-x--12--10-x--12--
E-12-x--10--12-x--10--12-x--10--12-x--10--
  ¡  !  ¡   ¡  !  ¡   ¡  !  ¡   ¡  !  ¡   

Base 2
e---------------------------------------
B---------------------------------------
G---------------------------------------
D-9-x--7-x--9-x--7-x--9-x--7-x--9-x--7--
A-9-x--7-x--9-x--7-x--9-x--7-x--9-x--7--
E-7-x--5-x--7-x--5-x--7-x--5-x--7-x--5--
  ! !  ¡ !  ¡ !  ¡ !  ¡ !  ¡ !  ¡ !  ¡   

Base 3
e-----------------------------------------
B-----------------------------------------
G-9-9--7-7--9-9--7-7--9-9--7--7--9-9--7-7-
D-9-9--7-7--9-9--7-7--9-9--7--7--9-9--7-7-
A-7-7--5-5--7-7--5-5--7-7--5--5--7-7--5-5-
E-----------------------------------------

Base 4
e-----------------------------------------
B-----------------------------------------
G-9-9-------9-9-------9-9-------9-9-------
D-9-9--9-9--9-9--9-9--9-9--9-9--9-9--9-9--
A-7-7--9-9--7-7--9-9--7-7--9-9--7-7--9-9--
E------7-7-------7-7-------7-7-------7-7--

(Sobre Base 1)
Eran cinco hermanos que decían:
'Quiero ir a las estrellas'
Y sus padres les decían,
que luego ellos irían,
siempre que primero terminaran
                    (Sobre Base 2)
los deberes de la escuela

(Sobre Base 1)
El primero no quería nada de eso
solo las estrellas
y las vio bien grandes
cuando el padre, (Atiendan el detalle)
lo agarró a patadas y lo echo
                     (Sobre Base 2)
derecho viejo pa' la calle

(Sobre Base 1)
El segundo se fue para Holywood
a trabajar de mozo
en un bar donde comían
siempre muchas de las grandes
estrellas de cine, como Linda Blair
               (Sobre Base 2)
y como Charles Bronson

(Sobre Base 3)
El tercero se hizo comisario
le pusierón una estrella
reluciente en la solapa 
de su clasica chaqueta
con el tiempo se olvidó
                             B5
de las estrellas y de los planetas

(Sobre Base 4)
El cuarto de los hermanos 
estudió para ser arquitecto
y gracias a tres botellas
consiguió salir electo
en la licitación para el proyecto
                       B5
de un hotel de cinco estrellas

(Sobre Base 4)
El menor, el quinto, era distinto
no quería, no podía
no podía conformarse
con estrellas de mentira
y hoy acaba de mandar una postal
                 B5
desde las tres marías

(Sobre Base 4)
Y eran cinco hermanos que decían:
                             B5-B5-B5-B5
'Quiero ir a las estrellas'

Nota: ¡= Tocar la nota para arriba (de la 6a Cuerda a la 1a)
      != Tocar la nota para abajo (de la 1a Cuerda a la 6a)