Comezón (de Pastilla)
(www.acordesytabs.com)
Esta es mas o menos la rola escuchenla bien 

Intro: 
1------------------------------------------------------------------
2---22--52----------22--52----------22--52-------------------------
3-----------22--52----------22--52----------22--52--5-5-5-5-5-5-5--
4------------------------------------------------------------------

Verso:
1------------------------------------------------------------------
2---22--52----------22--52----------22--52-------------------------
3-----------22--52----------22--52----------22--52--5-5-5-5-5-5-5--
4------------------------------------------------------------------

Coro: 
1------------------------------------------------------------------
2------------------------------------------------------------------
3------------------------------------------------------------------  2 veces
4--3-3-3-3-3-3-3-3-7-7-7-7-7-7-7-7-5-5-5-5-5-5-5-5-5-5-5-5-5-5-5-5-

Verso:
1------------------------------------------------------------------
2---22--52----------22--52----------22--52-------------------------
3-----------22--52----------22--52----------22--52--5-5-5-5-5-5-5--
4------------------------------------------------------------------

Coro: 
1------------------------------------------------------------------
2------------------------------------------------------------------  4 veces
3------------------------------------------------------------------
4--3-3-3-3-3-3-3-3-7-7-7-7-7-7-7-7-5-5-5-5-5-5-5-5-5-5-5-5-5-5-5-5-


1------------------------------------------------------------------
2---22--52----------22--52----------22--52-------------------------
3-----------22--52----------22--52----------22--52--5-5-5-5-5-5-5--
4------------------------------------------------------------------

Coro: 
1------------------------------------------------------------------
2------------------------------------------------------------------  
3------------------------------------------------------------------
4--3-3-3-3-3-3-3-3-7-7-7-7-7-7-7-7-5-5-5-5-5-5-5-5-5-5-5-5-5-5-5-5-

En el final cambia un poco 

1------------------------------------------------------------------
2------------------------------------------------------------------
3------------------------------------------------------------------
4--3-3-3-3-3-3-3-3-1-1-1-1-1-1-1-1-3-3-3-3-3-3-3-3-1-1-1-1-1-1-1-1-

Suerte escuchenla bien para saber los tiempos