What If (de Creed)
(www.acordesytabs.com)
"What If" by Creed
Tabbed by: LPBand1@aol.com
Drop D tuning

(Intro)

e-----------5-----3-----1---------1---0-------0---0-----|
B-------5-6---6-5---5-3---3-----3---3---3---3---2---2---|
G-----7---------------------1-1-----------0-----------0-| Repeat Twice
D-5/7---------------------------------------------------|
A-------------------------------------------------------|
D-------------------------------------------------------|

(End Intro)

e-----0-----------------|
B---2---3-3-2H3-5P3P0H2-|
G-0---------------------|
D-----------------------|
A-----------------------|
D-----------------------|

(Verse)

e-------------------------|
B-------------------------|At the opening of this, 
G-------------------------|and after every 4th time, 
D-0----------------------:|do a 3rd fret harmonic
A-0-------------3-5---1---|
D-0--0-0--3-5-0-----0---2-|

(Chorus)

e------------------------------------------------|
B------------------------------------------------|
G-3--5---------------------------------------3-5-|
D-3--5-------0------2---------------2--------3-5-|
A-1--3--1----0--3-5---5--1---0--3-5---5--1---1-3-|
D---------2--0-------------2-0-------------2-----|


e----------------------------------|
B----------------------------------|
G----------------------------------|
D------------2---------------2-----|
A-1---0--3-5---5--1---0--3-5---3-5-|
D---2-0-------------2-0------------|

(Bridge)

e----------------------------------------------------------------|
B-----------------------------------------------------3------4---|
G---------------------------------------------------1---1--1-----|
D-0-0-1-0-4-3-0-0-0-4-3-0---0-3-1-0-0-1-0-4-3-0-0-0-------------:|
A-------------------------3--------------------------------------|
D----------------------------------------------------------------|



Questions Comments or Suggestions
E-mail: LPBand1@aol.com