34 4 (de Dave Matthews Band)
(www.acordesytabs.com)
#34
Dave Matthews Band
Under The Table & Dreaming
Tabbed By: Louis Sedia 
DMBojangles41@yahoo.com


Verse 
0:00
e-------------------------------------------------------------------------------
B-------------------------------------------------------------------------------
G-------------------11-------------------7---6----------------------------------
D---------9------9--------11----------7------------4/~~~-7-7--------------------
A---0--7------7--------9-----------5--------------------------5---7--7---9--9---
E--(5)--------------------------------------------------------------------------
*
*Where u see (5) : Example: dave plays the 5 on the E string, but its the same a

Chorus
1:29
e--------------------------
B--------------------------
G--------------------------
D----------0----------0----
A-------4-(5)------5-(5)---
E----2----------3----------


Bridge
-Perhaps a little tough, but listen for timing on cd.
4:00
e---------------------
B---------------------
G---------------7--9--
D---7-7---7--9--7--9--
A---5/4---7--9--5--7--
E---------5--7--------


Bridge (End)

e---------------------------------------
B---------------------------------------
G---------------------------------------
D-----11----9---7---5------10------10---
A---9-----7---5---3------8--------8-----
E----------------------6--------6-------

Then into verse 

End on
e--------
B--------
G--------
D-----10-
A---8----
E-6------