All Along The Watchtower (de Dave Matthews Band)
(www.acordesytabs.com)
Song: All Along The Watchtower
Band: Dave Matthews Band
Album: Reccently, Live At Red Rocks, Listener Supported, various
Origanal Version: Bob Dylan
Other Versions: Jimi Hendrix, Greatful Dead, U2, Indigo Girls

Notes: This transcript is the skeleton of the song.  Every recording
of it is different because DMB always improvs during shows.  If you
play this for most the parts the only real thing you need to worry
about is the solo section.  There's always something different there.
Violin, sax, or sometimes Tim Reynolds joins and throws in a guitar
solo.  You could do tons of stuff with that, just make something up
that sounds cool and impress your friends.  The final verse section
is normally played loudly with the verse, then on it's own without
the band, and quietly during the solo section and final verse, then
loudly again for the outro.

Standard Tuning

   Am  G   F
E--5---3---1------------
B--5---3---1------------
G--5---4---2------------
D--7---5---3------------
A--7---5---3------------
E--5---3---1------------


Intro/Verse "There must be some kind of way out of here."

E-----------------------------------x--x---------------
B-----------------------------------x--x---------------
G-----------------------------------x--x---------------
D-----------------------------------x--x---------------
A-----------------------------------x--x---------------
E--/5--5---0--3--0--3--0--3--0--1---x--x---0--1--1--3--


Verse "'No reason to get excited,' The theif he kindly spoke."

E--------5-------3------1-------3-----3--
B--------5-------3------1-------3-----3--
G------5-------4--------2-----2-----4----
D----7-------5----------3-----3-----5----
A----7-------5----------3---3-----5------
E--5--------3-------1---1---1-----3------


Verse "All along the watchtower, princess kept a view."

Am Am Am Am Am   G G G G G   F F F F F   G