Dame, dame, dame (de Attaque 77)
(www.acordesytabs.com)
los acordes ya están pero faltan los arreglos y 
punteos q son así:


estas son las octavas del principio:
E-----------------------------------------------------------
B-----------------------------------------------------------
G-9-9-9-9-9-9-9-9--12-11-7-9--------------------------------
D-x-x-x-x-x-x-x-x---x--x-x-x--------------------------------
A-7-7-7-7-7-7-7-7--10--9-5-7--------------------------------
E-----------------------------------------------------------
El reloj ya marcó media noche.......

Despues del coro sigue un punteo q es así:
E---------------------------------------------------------
----------------------------------------------------------
G--9---------9-----------------12-11------11-9------------x2
D----9---------9------------9--------12-9-----------------
A------10--7-----10-7-10-12--------------------10-7-------
E---------------------------------------------------------

y en la parte q para la canción viene un rasgueo con los acorde:

E, C, B, D


ya bueno, eso era lo q faltaba .
Cualquier cosa mi mail está arriba y mi nombre también
chevere atame!!!!!!!!
chevere attaque!!!!!
aldo alarcon