Lie In Our Graves Riffs (de Dave Matthews Band)
(www.acordesytabs.com)
/|--------------LIE IN OUR GRAVES----------|
|-------------Dave Matthews Band----------|/


RIFF 1:
This riff is played throughout the intro and the beginning verse 

from * to * keep ur fingers on the d chord position and strum the 
indicated strings
  *----------*
E---------3---------------------------------------
B---3-----2-3-------------------------------------
G---2-------2---------------------2---------------
D---0-------0------------0--2--4-----4------------
A---------------4--2------------------------------
E---------------------------------------3---------
repeat this riff for another billion times

RIFF 2:
used throughout the instrumental and when it gets quiet
no pick here..use two fingers to pluck strings
E------------------------------------------------
B------------------------------------------------
G---11---9---7-----4-4-6-------------------------
D------------------------------------------------
A------------------------------------------------
E---10---9---7-----3-3-5-------------------------

thats the song in a nutshell..when dave goes nuts 
in the solos he basically goes nuts..so have fun 
figuring out what he's doing there