Minarets (de Dave Matthews Band)
(www.acordesytabs.com)
----------------------------------
Minarets
----------------------------------
Transcribed by:
Sean Spicer (driver8@phy.duke.edu)
----------------------------------

 Main riff is as follows
 
 
 E--------------------------------------------------------------
 B--------------------------------------------------------------
 G------------------------------------4---2---1---1/2---2---1---
 D--9---7---6--6/7----7---6-----------2---2---2---2/3---2---2---
 A--7---7---7--7/8----7---7-----------0---0---0-----------------
 E--0---0---0---------------------------------------------------
 
 And the other riff is
 
 E----------------------------------------------------------------
 B----------------------------------------------------------------
 G----------------------------------------------------------------
 D--------11--9--7--6--5--4----------------6h7p6------------------
 A-----9------------------------7--8-------------8-7--------------
 E--7--------------------------5---------------------5---7->repeat
  
 take this right into first riff