One Sweet World Intro (de Dave Matthews Band)
(www.acordesytabs.com)
This tab is very close. The first 0h1p0 spot I'm only 90% sure on. I've heard th


e------------------------------------------------------------
B-----------6----------4-------------------------------------
G-----8-------------------0h1p0-----3-0----------------------
D-------8------8---5--------------3----------3-----3---0-----
A--6------5------5---3----------1----------1---1--0--0-------
E----------------------------------------4-------------------


e------------------------------------------------------------
B------1---------0h1p0---------------------------------------
G--------0----2----------3-----------------------------------
D----2---------------------3-0------3------3-----------------
A--3--------2----------1----------3------3----6-------6-8-6--
E-------------------------------1------4---------6/8---------



DMB is pimp!

jgrohol@ccomm.com if you have any questions or fixes to this.