Sleep To Dream Her (de Dave Matthews Band)
(www.acordesytabs.com)
Sleep to Dream Her
Dave Matthews Band
Everyday
Transcripted By: Chris McAleenan


Intro:
E---------------------------------------------------------------------
B-----12-12-12---12-12-12---12-12-12---11-11-11---10-10-10---10-10-10-
G-----12-12-12---12-12-11---11-11-11---11-11-11---11-11-11---11-11-11-
D---------------------------------------------------------------------
A---------------------------------------------------------------------
E--11----------10---------9----------9----------9----------8----------


Intro continued:
E----------------------------------------------------------
B---10-10-10-----9-9-9---8-8-8---8-8-8---8-8-8----7-7-7----
G---11-11-11-----9-9-9---7-7-7---7-7-7---7-7-7----7-7-7----
D----------------------------------------------------------
A----------------------------------------------------------
E-7-----------7--------7-------6-------5--------5----------


Intro continued:
E----------------------------------------------
B----5-5-5---5-5-5---5-5-5---5-5-5-------------
G----7-7-7---7-7-7---6-6-6---6-6-6-------------
D----------------------------------------------
A----------------------------------------------
E--5-------5-------5-------5-------------------


Middle section w/o words:
E--0--0--0--0----0--0---------------------------------
B--1--0--2--2----1--0--3------------------------------
G--2--0--2--2----2--0--2------------------------------
D--3--2--2--2----3--2--0------------------------------
A--3--2--0--0----3--2--0------------------------------
E-----0-------------0---------------------------------


E--0-0h1-0---0-0h1-0---0-0-7-0-7h9-5-- ---------------------
B--1-------1-0-------0-2-------------- ------3-3----3-3-----
G--2---------0---------2-------------- --2-2----0-0---------
D--3---------2---------2-------------- --0--------------4---
A--3---------2---------0-------------- ---------------------
E------------------------------------- ---------------------