What Will Become Of Me (de Dave Matthews Band)
(www.acordesytabs.com)
What Will Become Of Me?
Dave Matthews Band
Used as an acoustic outro for Jimi Thing
Later became Pantala Naga Pampa (intro to Rapunzel)

e---3---|---3---|---3---|---3---|
b---3---|---3---|---3---|---3---|
g---0---|---0---|---2---|---2---|
d---0---|---2---|---2---|---0---|
a---2---|---2---|---0---|---x---|
E---3---|---x---|-------|---2---|

Repeat this over and over


For Pantala Naga Pampa it's:

e---x----|---x----|---x---|---x---|
b---x----|---x----|---x---|---x---|
g---11---|---11---|---6---|---4---|
d---x----|---x----|---x---|---x---|
a---9----|---9----|---4---|---2---|
E---10---|---10---|---5---|---3---|

then into WWBOM? chords for the verse
pretty easy really
any questions or corrections -->MIKE5621@aol.com