Jumper (de Attaque 77)
(www.acordesytabs.com)
RIFF A

   C        G/B      A        G       F       C       G       C
||--------|--------|--------|-------|-------|-------|-------|----||
||------2-|--------|--------|-------|-------|-------|-------|----||
||-3--5---|-2--3-2-|----2---|-------|---0-2-|-3-2-0-|---0-2-|-3--||
||--------|--------|-5----5-|-3-3-3-|-1-----|-------|-3-----|----||


RIFF B

   Am            C         G             C
||-------------|---------|-------------|---------|
||-------------|---------|-------------|---------|
||-------------|-3-5-3-0-|-------------|-3-2-0---|
||-5-5-7-5-7-5-|---------|-3-3-5-3-5-3-|-------3-|

 F          A         G         B.1  G             B.2  G
|---------|---------|---------|    |-------------|    |-----------|
|---------|---------|---------|    |-------------|    |-------6-7-|
|---------|---------|---------|    |-----0-0-2-3-|    |-2/7-9-----|
|-1-1-1-1-|-5-5-5-5-|-3-3-3-3-|    |-3-3---------|    |-----------|
 

RIFF C
   F       C      G       C   G       C
||-------|------|-------|---|-------|---||
||-------|------|-------|---|-------|---||
||---0-2-|-3-2-0|---0-2-|-3-|---0-2-|-3-||
||-1-----|------|-3-----|---|-3-----|---||


RIFF  A x2
RIFF  B + B.1
RIFF  A x2
RIFF  B + B.2
RIFF  A + C