En el Barrio (de M-Clan)
(www.acordesytabs.com)
E---------13-----------------------------9-12-9---------------------------
B--------------12/14--10-10-8-8-7-7------------- 10--10-10-8-8---------
G-13-13----------------------------------------------------------5-5-5----
D-------------------------------------------------------------------------7--
A-----------------------------------------------------------------------------
E-----------------------------------------------------------------------------

E----------------------------------------------------
B-10-10-8-8-7-4/5--------------------------------
G-------------------7-5-----------------------------
D-----------------------7-7-5-----------------------
A------------------------------7-5------------------
E-----------------------------------5-0-3-3-5-5-5-


E-----------------	=  *1			E-----------------		=  *2
B-----------------				B----------------
G----------------				G----------------
D-10-10-10--7-				        D----------------
A----------------				A----------------
E----------------				E-0-0-3-5-5-5--

E----------------------------------------		= *3
B-10-10-8-8-7-7-5-5-----------------
G----------------------------------------
D----------------------------------------
A----------------------------------------
E------------------------0-3-3-5-5-5--

E-----------------------------------------		= *4
B-10-10-8-8----------------------------
G--------------5-5--------5---------------
D-------------------7---5---------------
A---------------------7-------------------
E------------------------------------------

E--------------------	= *5			E-----------------	= *6
B-----12----13-----				B----13/16------
G-12----12----12--				G-12-------------
D--------------------				D------------------
A--------------------				A------------------
E--------------------				E------------------

E----------------	= *7
B12-13-15-12-
G----------------
D----------------
A----------------
E----------------


A
En el barrio en el barrio, 				*1
                D	E
Quiero subir al cielo mi amor,			*2
A					
En el barrio en el barrio,				*1
		D	E
Un caramelo de color marrón.			*2
A		     D
Yo me voy p’arriba a colocarme,			*3
A		     D
Yo me voy p’abajo a colocarme.			*4
E
Películas porno en el videobank,			*5
C			D
Tubos de escape que destrozan mi paz,		*6
E
Perfume barato para celebrar,			*7
C		    D
Que es sábado noche ya...en el barrio.
A
En el barrio en el barrio,				*1
		D	E
Quiero subir al cielo mi amor,			*2
A
En el barrio en el barrio,				*1
		D	E
Un caramelo de color marrón.			*2 , *1
A			D
Yo me voy p’arriba a colocarme,			*2
A			D
Yo me voy p’abajo a colocarme,
A			D
Yo me voy p’alcentro a colocarme, 			*2
A			D
Yo me voy p’adentro a colocarme.

E-------------12------------15-15-18-15-18-15-18-15-18-15/13------
B-13-13-15-16----13-----13---------------------------------------------12--
G--------------------12------------------------------------------------------
D---------------------------------------------------------------------------------
A---------------------------------------------------------------------------------
E---------------------------------------------------------------------------------






E----------------------------------------------------
B---------------------------------------10/13--10-
G-9-8-7--------------------------------------------
D--------10-7--------------------------------------
A--------------10-7--------------------------------
E--------------------10-5--0-5-8-5---------------

E
Bomberos de guardia que cortan la luz,
	C			D
Para boca de incendios la que tienes tu ,
E
Te busca el cubano no se que querrá,
	C		   D
Porque aquí nadie ha visto na...en el barrio.
A
En el barrio en el barrio, 			*1
D	E
Quiero subir al cielo mi amor,		        *2
A
En el barrio en el barrio,			*1
		D	E
Un caramelo de color marrón.		        *2
A
En el barrio en el barrio, 			*1
D	E
Quiero subir al cielo mi amor,		        *2
A
En el barrio en el barrio,			*1
	D	E
Barrio, ououghuo				*3,3,*3,*3

FINAL:	        E----------------
		B----------------
		G-5~ 2~ -------
		D----------------
		A----------------		
		E----------------