Bored (de Deftones)
(www.acordesytabs.com)


This tab is really easy to play and realy good i hope you enjoy it.

tuning drop d (dadgbe)

intro

E ------------------------------------------------------------------------------
B ------------------------------------------------------------------------------
G ------------------------------------------------------------------------------
D ---------------1--1--1--1-----0---1---0-----------------1--1--1--1-----0---1--
A ---------------1--1--1--1-----0---1---0-----------------1--1--1--1-----0---1--
D ---------------1--1--1--1-----0---1---0-----------------1--1--1--1-----0---1--


chorus 


E ------------------------------------------------------------------------------
B ------------------------------------------------------------------------------
G ------------------------------------------------------------------------------
D -------------5--5--5--5-----------8--8--8--8-------------8--8--8--8--8--8--8--
A -------------5--5--5--5-----------6--6--6--6-------------5--5--5--5--5--5--5--
D -------------5--5--5--5-------------------------------------------------------


E ------------------------------------------------------------------------------
B ------------------------------------------------------------------------------
G ------------------------------------------------------------------------------
D ------------8--8--8--8-------7--7--7--7--7--7--7--7---------------------------
A ------------6--6--6--6------5--5--5--5--5--5--5--5----------------------------
D ------------------------------------------------------------------------------


verse


E ------------------------------------------------------------------------------
B ------------------------------------------------------------------------------
G ------------------------------------------------------------------------------
D -----------1--1--1--1------0---1---0-------------------1--1--1--1-------0---1-
A -----------1--1--1--1------0---1---0-------------------1--1--1--1-------0---1-
D -----------1--1--1--1------0---1---0-------------------1--1--1--1-------0---1-