Change (de Deftones)
(www.acordesytabs.com)
Tabbed By Dave Novini (sean_olsen007@hotmail.com)

Dropped C Tuning

(number of beats isint correct)

Intro and Verses

---------------------------------------------------------
---------------------------------------------------------
-9-9-9-9-9-----------------------------------------------
-x-x-x-x-x---5-5-5--7-7-7-6-6-6-7-7-7-6-6-6-5-5-5--------
-7-7-7-7-7---5-5-5--5-5-5-5-5-5-5-5-5-5-5-5-5-5-5--------
-------------5-5-5--5-5-5-5-5-5-5-5-5-5-5-5-5-5-5--------

Chorus (heavy dist)

--------------------------------------------------------
--------------------------------------------------------
------------------9-9-9-9-9-----------------------------
------------------7-7-7-7-7-----------------------------
--0-0-0-0-0-0-0-0-7-7-7-7-7-----------------------------
--0-0-0-0-0-0-0-0-7-7-7-7-7-----------------------------

There