Change (de Deftones)
(www.acordesytabs.com)
Deftones - Change(In The House Of Flies)
Tabbed By Greg Harrison
Any Coments To greg_7485@hotmail.com

EBGDAE - Standard Tuning

  This song only needs one guitar and a bass,but it can be played
  without the bass.If you are going to do this you will need to use
  extra distortion in the chorus.

Intro - Played with slight distortion

E|------------------------------------------
B|-----------------------------------------
G|--8-8-8-8-8-8-8-8---5-5-5-5-5-5-5-5------
D|--8-8-8-8-8-8-8-8---5-5-5-5-5-5-5-5----X2--------
A|--6-6-6-6-6-6-6-6---3-3-3-3-3-3-3-3----------
E|--6-6-6-6-6-6-6-6---3-3-3-3-3-3-3-3-------

Verse - Drums come in

E|----------------------------------------------
B|-----------------------------------------
G|--8-8-8-8-8-8-8-8---5-5-5-5-5-5-5-5----------
D|--8-8-8-8-8-8-8-8---5-5-5-5-5-5-5-5---X4------
A|--6-6-6-6-6-6-6-6---3-3-3-3-3-3-3-3--------
E|--6-6-6-6-6-6-6-6---3-3-3-3-3-3-3-3---------


Chorus - Heavy Distortion

E|----------------------------------------
B|----------------------------------------
G|--------------------8-8-8-8-8-8-8-8------
D|--5-5-5-5-5-5-5-5---8-8-8-8-8-8-8-8--X4---
A|--5-5-5-5-5-5-5-5---6-6-6-6-6-6-6-6------------
E|--3-3-3-3-3-3-3-3---6-6-6-6-6-6-6-6-------

 Verse

Chorus - Heavy Distortion 

E|------------------------------------------
B|---------------------------------------
G|--------------------8-8-8-8-8-8-8-8--------
D|--5-5-5-5-5-5-5-5---8-8-8-8-8-8-8-8--X4----
A|--5-5-5-5-5-5-5-5---6-6-6-6-6-6-6-6--------
E|--3-3-3-3-3-3-3-3---6-6-6-6-6-6-6-6------

Then:
E|----on-the-4th-time-it-might-stop-here-----
B|------------------|-----------------------
G|--------------------------------------------
D|--8-8-8-8-8-8-8-8---5-5-5-5-5-5-5-5---X4---   Let The Last Note Ring
A|--8-8-8-8-8-8-8-8---5-5-5-5-5-5-5-5-----------
E|--6-6-6-6-6-6-6-6---3-3-3-3-3-3-3-3----------

Theres a little riff in here.im not sure how it goes but i think its
something like this:

E|------------------------------
B|------------------------------
G|-----------------------------      E-mail me if you know the 
D|-------555--333--5--2-------X4--     correct tab for this bit
A|--333-------------------3------
E|-----------------------------

Then the chorus again.

You will have to listen to the track to get the timing etc right but
the chords should be right.
                          Greg

Any Comments e-mail me. greg_7485@hotmail.com