My Own Summer Shove It Correct Intro (de Deftones)
(www.acordesytabs.com)
Deftones - My own summer (Shove It) intro
Tabbed by Dan Alani
Standard Tuning (EBGDAE)
There are 3 ways you can play this:

e:------------------------
b:------------------------
g:------------------------
d:------------------------
a:------------------------
e:0-11-12--11-8--8-8-7-8-5

e:------------------------
b:------------------------
g:------------------------
d:------------------------
a:---6-7--6-3--3-3-2--3-0-
e:0-----------------------

e:------------------------
b:------------------------
g:------------------------
d:--1-2--1----------------
a:---------3--3-3-2-3-0---
e:0-----------------------

if you have any comments, sudjestions etc e-mail me at 
cutecactuar@hotmail.com