Root (de Deftones)
(www.acordesytabs.com)








Song: root






Song: rootArtist: deftones

Album: adrenaline

By: mike (H M H C) (calmecac)

  Intro

|-----------

|---7-7-----

|-----------

|----------9

|-----------

|-----------

Chorus<

|---0-0-----

|---0-0---7-

|----------9

|-----------

|-----------

|-----------

Chorus 2 |---0-------

|---0-------

|---0-------

|-----------

|-----------

|-----------

Repeat Intro with pm..

Repeat Chorus

Repeat Chorus 2

|---6-/-5-5/

|---8-/-7-7/

|-----------

|-----------

|-----------

|-----------

Repeat Chorus 2

End|-----------

|---7--8----

|---x--x----

|---9--10--1

|-----------

|-----------