Esclavo y amo (de Angeles Negros)
(www.acordesytabs.com)
dedicada a mi GORDA= Ma. Magdalena Crisanto Salas
te amooooo atte: César Luis 
gracias por 6 meses y medio, 26 semanas, 182 dias, 
4 368 horas, 262 080 min, 15 724 800 seg y contanto.
¿¿TE QUIERES CASAR CONMIGO??


E|-0-5-5-5-5-0-1-3-3-3-3---0-1-1-1-1-----0--------
B|-----------------------3-----------1-3----------
G|------------------------------------------------
D|------------------------------------------------
A|------------------------------------------------
E|------------------------------------------------


E|-0-5-5-5-5-0-1-3-3-3-3---0-1-1-1-1-----0--------
B|-----------------------3-----------1-3----------
G|------------------------------------------------
D|------------------------------------------------
A|------------------------------------------------
E|------------------------------------------------


E|-0-1-0---0-1-3-7-5-4-0-5-4-5-4-1-0--0-5-5-4-5-0-
B|-------3----------------------------------------
G|------------------------------------------------
D|------------------------------------------------
A|------------------------------------------------
E|------------------------------------0-5-5-4-5-0-


ESPERO LES HAYA SALIDO, ESTA MUY FACIL.