Estabas Ahí (de Moenia)
(www.acordesytabs.com)
Si tan solo un fragmento ...

E -----------------------------------------------------
B -----------------------------------------------------
G -----------0-------------------0---------------------
D -------0-------0----------0----------0---------------
A -----3---3---3---3------3----3----3-----3------------
E ---0------------------3------------------------------

Pudiera conservar ...

E -----------------------------------------------------
B -----------------------------------------------------
G -----------2-------------------0---------------------
D -------0-------0----------0--------0-----------------
A ---0-3---3---3---3------2----2---2---2---------------
E ----------------------3------------------------------


           G              A
No seria a ti, no seria a ti
         D          F#m
Esta vez no seria a ti
           G                A
No supiste dar lo que yo te di
           D                 F#m
No supiste ver lo que hay en mi




Nota:
La tablatura es una variacion de la que toca Moenia,
pero me gusta como se escucha.