Bring Me To Life (de Evanescence)
(www.acordesytabs.com)
#----------------------------------PLEASE NOTE--------------------------------#
#This file is the author's own work and represents their interpretation of the#
#song. You may only use this file for private study, scholarship, or research.#
#-----------------------------------------------------------------------------#
#-- File created with Instab - http://www.pconline.com/~smcarey/instab.html --#
#-----------------------------------------------------------------------------#

Author/Artist: Evanescence
Title: Bring Me To Life
Transcribed by: Chris Seymour
Email: s1249013@cedarville.edu

------------------------------------------------------------------------------
------------------------------------------------------------------------------
------------------------------------------------------------------------------
------------------------------------------3*3*--------------------------------
------------------------------------------3*3*--------------------------------
------------------------------------------------------------------------------
 How can you see into my eyes like open doors   *w/delay                      

------------------------------------------------------------------------------
------------------------------------------------------------------------------
------------------------------------------------------------------------------
------------------------------------------------3*----------------------------
------------------------------------------------3*----------------------------
------------------------------------------------------------------------------
 Leading you down into my core where I've become so numb  *w/vol. swell       

-------------|-----------------|-------------|--------------------------------
-------------|-----------------|-------------|--------------------------------
-------------|---------------5-|-------------|---------------5----------------
-------------|---------------5-|-------------|---------------5----------------
-33-33-33-33-|-33-33-33-33-33--|-33-33-33-33-|-33-33-33-33-33-----------------
-33-33-33-33-|-33-33-33-33-33--|-33-33-33-33-|-33-33-33-33-33-----------------
 Without a soul                  my spirit sleeping somewhere cold            

-------------|-----------------|-------------|--------------------------------
-------------|-----------------|-------------|--------------------------------
-------------|---------------5-|-------------|---------------5----------------
-------------|---------------5-|-------------|---------------5----------------
-33-33-33-33-|-33-33-33-33-33--|-33-33-33-33-|-33-33-33-33-33-----------------
-33-33-33-33-|-33-33-33-33-33--|-33-33-33-33-|-33-33-33-33-33-----------------
 Until You find it there and     lead it back home.                           

------------------------------------------------------------------------------
------------------------------------------------------------------------------
------------------------------------------------------------------------------
-3--------------------------6-------------------------------------1-----------
-3--------------------------6-------------------------------------1-----------
-3--------------------------6-------------------------------------1-----------
 Wake me up - Wake me up inside   I can't wake up - Wake me up inside         

------------------------------------------------------------------------------
------------------------------------------------------------------------------
---------------------------------5--------------------------------------------
-----------------------------3------------------------------------------------
-----------------------------3------------------------------------------------
-----------------------------3------------------------------------------------
 Save me - call my name and save me from the dark                             

------------------------------------------------------------------------------
------------------------------------------------------------------------------
------------------------------------------------------------------------------
-3----------------------------6----------------------------------------1------
-3----------------------------6----------------------------------------1------
-3----------------------------6----------------------------------------1------
 Wake me up - Bid my blood to run   I can't wake up - Before I come undone    

------------------------------------------------------------------------------
------------------------------------------------------------------------------
---------------------------------------------------------------5--------------
----------------------------3----------------------------------5--------------
----------------------------3--------------------33-33-33-33-33---------------
----------------------------3--------------------33-33-33-33-33---------------
 Save me - Save me from the nothing I've become                               

----------------------------------|-------------------------------------------
----------------------------------|-------------------------------------------
-------------------------------5--|-------------------------------5-----------
-------------------------------5--|-------------------------------5-----------
-33-33-33-33-333-33-33-33-33-33---|-33-33-33-33-333-33-33-33-33-33------------
-33-33-33-33-333-33-33-33-33-33---|-33-33-33-33-333-33-33-33-33-33------------
 Now that I know what I'm without,   you can't just leave me                  

----------------------------------|-------------------------------------------
----------------------------------|-------------------------------------------
-------------------------------5--|-------------------------------5-----------
-------------------------------5--|-------------------------------5-----------
-33-33-33-33-333-33-33-33-33-33---|-33-33-33-33-333-33-33-33-33-33------------
-33-33-33-33-333-33-33-33-33-33---|-33-33-33-33-333-33-33-33-33-33------------
 Breathe into me and make me real    bring me to life                         

------------------------------------------------------------------------------
------------------------------------------------------------------------------
------------------------------------------------------------------------------
-3-------------------------6---------------------------------------1----------
-3-------------------------6---------------------------------------1----------
-3-------------------------6---------------------------------------1----------
 Wake me up - Wake me up inside     I can't wake up - Wake me up inside       

------------------------------------------------------------------------------
------------------------------------------------------------------------------
---------------------------------5--------------------------------------------
----------------------------3-------------------------------------------------
----------------------------3-------------------------------------------------
----------------------------3-------------------------------------------------
 Save me - Call my name and save me from the dark                             

------------------------------------------------------------------------------
------------------------------------------------------------------------------
------------------------------------------------------------------------------
-3----------------------------6-----------------------------------------1-----
-3----------------------------6-----------------------------------------1-----
-3----------------------------6-----------------------------------------1-----
 Wake me up - Bid my blood to run     I can't wake up - before I come undone  

------------------------------------------------------------------------------
------------------------------------------------------------------------------
------------------------------------------------------------------------------
----------------------------3--------------11/-0--00--------------------------
----------------------------3--------------11/-0--00--------------------------
----------------------------3--------------11/-0--00--------------------------
 Save me - Save me from the nothing I've become                               

------------------------------------------------------------------------------
------------------------------------------------------------------------------
-------------------------------------------------5----------------------------
-------13/-0--00---------------------------------5----------------------------
-------13/-0--00---33-33-33-33-333-33-33-33-33-33-----------------------------
-------13/-0--00---33-33-33-33-333-33-33-33-33-33-----------------------------
 Bring me to life - I've been living a lie, there's nothing inside            

------------------------------------------------------------------------------
------------------------------------------------------------------------------
------------------------------------------------------------------------------
-11/-0-00--13/-0-00-----------------------------------------------------------
-11/-0-00--13/-0-00--33-33-33-33-333------------------------------------------
-11/-0-00--13/-0-00--33-33-33-33-333---3/-5/-6/-10----------------------------
 Bring     me to     life                                                     

------------------------------------------------------------------------------
------------------------------------------------------------------------------
------------------------------------------------------------------------------
-8---------6-----------------5------------------------------------------------
-8---------6-----------------5------------------------------------------------
-8---------6-----------------5-------------------3/-5/-6/-10------------------
 Frozen in time without your touch, without your love darling                 

------------------------------------------------------------------------------
------------------------------------------------------------------------------
------------------------------------------------------------------------------
-8----6-----------5-----------------------------------------------------------
-8----6-----------5-----------------------------------------------------------
-8----6-----------5-----------------------------------------------------------
 Only you are the life among the dead                                         

------------------------------------------------------------------------------
------------------------------------------------------------------------------
------------------------------------------------------------------------------
------------------------------------------------------------------------------
-33-33-33-33-333--------------------------------------------------------------
-33-33-33-33-333--------------------------------------------------------------
 All of this time, I can't believe I couldn't see                             

------------------------------------------------------------------------------
------------------------------------------------------------------------------
---------------5--------------------------------------------------------------
---------------5--------------------------------------------------------------
-33-33-33-33-33---------------------------------------------------------------
-33-33-33-33-33---------------------------------------------------------------
 Kept in the dark, but you were there in front of me                          

------------------------------------------------------------------------------
------------------------------------------------------------------------------
------------------------------------------------------------------------------
------------------------------------------------------------------------------
-33-33-33-33-333--------------------------------------------------------------
-33-33-33-33-333--------------------------------------------------------------
 I've been sleeping a thousand years it seems                                 

------------------------------------------------------------------------------
------------------------------------------------------------------------------
---------------5--------------------------------------------------------------
---------------5--------------------------------------------------------------
-33-33-33-33-33---------------------------------------------------------------
-33-33-33-33-33---------------------------------------------------------------
 Got to open my eyes to everything                                            

------------------------------------------------------------------------------
------------------------------------------------------------------------------
------------------------------------------------------------------------------
------------------------------------------------------------------------------
-33-33-33-33-333--------------------------------------------------------------
-33-33-33-33-333--------------------------------------------------------------
 Without a thought, without a voice, without a soul                           

------------------------------------------------------------------------------
------------------------------------------------------------------------------
---------------5------------------------------------------------------5-------
---------------5------------------------------------------------------5-------
-33-33-33-33-33-------------------------33-33-33-33-333-33-33-33-33-33--------
-33-33-33-33-33-------------------------33-33-33-33-333-33-33-33-33-33--------
 Don't let me die here - there must be something more   Bring me to life      

------------------------------------------------------------------------------
------------------------------------------------------------------------------
------------------------------------------------------------------------------
-3-------------------------6--------------------------------------1-----------
-3-------------------------6--------------------------------------1-----------
-3-------------------------6--------------------------------------1-----------
 Wake me up - Wake me up inside    I can't wake up - Wake me up inside        

------------------------------------------------------------------------------
------------------------------------------------------------------------------
------------------------------------------------------------------------------
----------------------------3-------------------------------------------------
----------------------------3-------------------------------------------------
----------------------------3-------------------------------------------------
 Save me - Call my name and save me from the dark                             

------------------------------------------------------------------------------
------------------------------------------------------------------------------
------------------------------------------------------------------------------
-3----------------------------6----------------------------------------1------
-3----------------------------6----------------------------------------1------
-3----------------------------6----------------------------------------1------
 Wake me up - Bid my blood to run    I can't wake up - Before I come undone   

------------------------------------------------------------------------------
------------------------------------------------------------------------------
------------------------------------------------------------------------------
----------------------------3---------------3---------------------------------
----------------------------3---------------3-x8------------------------------
----------------------------3---------------3---------------------------------
 Save me - Save me from the nothing I've become                               

------------------------------------------------------------------------------
------------------------------------------------------------------------------
------------------------------------------------------------------------------
-------6-------------------------------------------------------3--------------
-------6-x8--------33-33-33-33-333-----------------------------3-x8-----------
-------6-----------33-33-33-33-333---------3/-5/-6/-10---------3--------------
 Bring me to life - I've been living a lie, there's nothing inside            

------------------------------------------------------------------------------
------------------------------------------------------------------------------
------------------------------------------------------------------------------
-------6------2---------------------------------------------------------------
-------6-x8---2---------------------------------------------------------------
-------6------2---------------------------------------------------------------
 Bring me to life