Tulu is a wimp (de Queers)
(www.acordesytabs.com)

-------------------------------------------------------------------------------
			     tulu is a wimp - the queers
-------------------------------------------------------------------------------

By:christopher taylor

G|---------------------------------------------------------------------------|
D|---------------------------------------------------------------------------|
A|-------7-------------------------------------------------------------------|
E|-7-8-5---------------------------------------------------------------------|

G|---------------------------------------------------------------------------|
D|---------------------------------------------------------------------------|
A|---7-----------------------------------------------------------------------|
E|--7-7-5--------------------------------------------------------------------|