Hambruna (de Dos Minutos)
(www.acordesytabs.com)
Intro y Verso  
          
E]--------------------------------------I        8x
B]--------------------------------------I
G]---11-11------------6-6-6-------------I
D]---11-11--9-9--6-6--6-6-6-------------I
A]----9--9--9-9--6-6--4-4-4-------------I
E]----------7-7--4-4--------------------I
    
No me digas, no me digas mi amor
que las cuentas se pasan de deudor
los impuestos, nos tiran a matar 
y el dinero, no parece alcanzar 

Coro  

E]--------------------------------------I        4x
B]--------------------------------------I
G]----4-444-6-666-------8-888-----------I
D]----4-444-6-666-8-888-8-888-----------I
A]----2-222-4-444-8-888-6-666-----------I
E]----------------6-666-----------------I

Nos quieren asesinar con hambre y miseria
nos vamos a resistir para que entiendan
que el primer mundo que dicen que somos es todo una mierda
viven bien solo unos pocos y el pobre que muera

Bridge

E]--------------------------------------I        4x
B]--------------------------------------I
G]----4-444-6-666-----------------------I
D]----4-444-6-666-----------------------I
A]----2-222-4-444-----------------------I
E]--------------------------------------I


Recesion, 
desocupacion 
ya no tienen corazon
busquen una solucion


verso 8x
coro 4x
brigde 4x
verso 4x
coro 4x
verso 4x
verso 8x