Hay una bomba en el colegio (de Attaque 77)
(www.acordesytabs.com)
Hay una bomba en el colegio

(Se toca con acordes de quinta) 

INTRO: Punteo 1 

F               Bb     C
Hay una bomba en el colegio
F           Bb      C
Pronto todos a correr
F                        Bb           C   
El cuadro de sarmiento tirado en el suelo
F       Bb        C
Y tu pollera también .


 G#                C#         D#
Pronto aprovechemos la confusión
G#         C#    D#
Y hagamos  el  amor
G#               C#    D#
No, no insistas con el baño
G#                    Bb
Debajo del pupitre es mucho mejor.

Punteo 1

Botas kickers pateándome los huevos
Y tus libros tirados en el suelo
En el patio la maestra grita
Y nosotros dos cogemos.

Nunca imaginaste estar así 
Todos afuera y nosotros aquí 
El colegio va a explotar
Y nosotros vamos a acabar.

Punteo 1 y 2

Falsa alarma en el colegio
Pronto todos a su lugar
La bomba era un invento
Pero nosotros explotamos igual

Que vergüenza, que ejemplo
Nos atraparon en ese momento
Que dirán mamá y papá
Mejor nos vamos de la ciudad

F                Bb       C
Días de escuela
F                Bb       C
Días de escuela, no, no, no, no

Punteo1:

e:--------------------------------------------------
b:--5-5-------5-5-------5-5--4-4------4-4-----------
g:-------4-4-------4-4------------6-6---------------
d:--------------------------------------------------
a:--------------------------------------------------
E:-------------------------------------------------


Punteo 2

e:-------------------------------------------------
b:--3-3------3-3------3-3--2-2-------2-2-------
g:-------2-2------2-2------------4-4------------
d:-------------------------------------------------
a:-------------------------------------------------
E:------------------------------------------------


Mail: punkrock_77@uol.com.ar