Hermoso cariño (de Vicente Fernandez)
(www.acordesytabs.com)
Mi primera tabulación espero que les guste
Dudas, correcciones y comentarios a panchito_dj@hotmail.com

Este es el requinto de mi versión, que va a partir de:
“No puedo evitarlo, y quiero gritar lo.........”


e |-7-7--5-3--7-7--|-7-7--5-3--7-5--|-5-5--3-2--3-3--|
B |-8-8--7-5--8-8--|-8-8--7-5--8-7--|-7-7--5-3--5-5--|
G |-7-7-------7-7--|-7-7-------7----|----------------|
D |----------------|----------------|----------------|
A |----------------|----------------|----------------|
E |----------------|----------------|----------------|


e |-3-3--2-0--3-3--|-5-7-5-3-2--|
B |-5-5--3-2--5-5--|-7-8-7-5-3--|
G |----------------|---7-----2--|
D |----------------|------------|
A |----------------|------------|
E |----------------|------------|