Héroe de Nadie (de Attaque 77)
(www.acordesytabs.com)
INTRO
  E        D#    C# B
G|---------------------|
D|---------------------|
A|---------------------|
E|-12-12-12-11-11-9--7-|

RIFF 1
  B                              C#
|-----------------------------|-----------------------------|
|-----------------------------|-----------------------------|
|---------------------0-2-3-4-|-4-4-4-4-4-4-4-4-4-4---------|
|-7-7-7-7-7-7-7-7-7-7---------|---------------------0-3-4-5-|
 _
|1
  A                   C#
|-----------------------------------------|
|-----------------------------------------|
|---------------------4-4-4-4-4-4-4-4-4-4-|
|-5-5-5-5-5-5-5-5-5-5---------------------|
 _
|2
  B                   C#
|-----------------------------------------|
|-----------------------------------------|
|---------------------4-4-4-4-4-4-4-4-4-4-|
|-7-7-7-7-7-7-7-7-7-7---------------------|


RIFF 2
  B                        C#
|-------------------------|----------------|
|*------------------------|---3-4-6-4-3---*|x3
|*-2-2-2-2-2-2-2-2-2-2-3-4|-4-----------4-*|
|-------------------------|----------------|

  A         C         C#
|---------|---------|---------|
|---------|---------|---------|
|-0-(x12)-|-2-(x12)-|-4-(x12)-|
|---------|---------|---------|


ORDEN
Intro
Riff 1 + A
Riff 1 + B
Riff 2
Riff 1 + A
Riff 1 + B
Riff 2
Riff 1 + A
Riff 1 + B
Riff 2

*************************************************
*Dudas, comentarios, sugerencias manden un mail.*
*La cancion es facil solo tiene aproximaciones y*
*     un areglo en el C# del estribillo         *
*************************************************