Hero of the day intro (de Metallica)
(www.acordesytabs.com)

 dont get angry if its not all right, cuz i have never done this.
and i honestly dont know how to make this, i just have the tab book 
of metallica. So if u wanna tell me something about this or how to do it email me at
sandman853@hotmail.com

Eb|----------|------------|------------|--------------|
Bb|----------|------------|------------|--------------|
Gb|----------|-----2-----2|-----2----2-|-----4-----4--|
Db|----------|---2-----2--|---2----2---|---6---6-----6|
Ab|-----0----|-0-----2----|-4----5-----|-7-------7----|
Eb|---2---2--|------------|------------|--------------|

Eb|----------------|-------------|-----------|------------------|
Bb|----------------|-------------|-----------|------------------|
Gb|---4------------|------2----2-|-----2---2-|-7--------4-----4-|
Db|-----6-(6)-----|----2----2---|---2---2---|-4--6-------6-----|
Ab|-7-----------0--|--0----2-----|-4---5-----|-4-----7------7---|
Eb|-----------2---2|-------------|-----------|------------------|

Eb|---------------------|
Bb|---------------------|
Gb|------4--4-6-4-------|
Db|--6------------6-6-7-|
Ab|----7----------------|
Eb|---------------------|

Well thats all, i know it sucks. but i wanted to try it.