Indio deja el mezcal (de Divididos)
(www.acordesytabs.com)
Versos
|--------------------------------|--------------------------------|
|--------------------------------|--------------------------------|
|------------------------4---4---|------------------------4---4---|
|2---2-0-2---2-0-2---2-5---5---5-|2---2-0-2---2-0-2---2-5---------|

|-----|x12(mas o menos)
|-----|
|-----|
|--2--|

|----------------------------6/0-|----------------------------6h7-|x2
|----------------9---7---9-------|----------------9---7---9-------|
|9---7---9-----------------------|9---7---9-----------------------|
|------------9-7-----------------|------------9-7-----------------|

|-----|x15(mas o menos)
|-----|
|--9--|
|-----|

|----------------------------6/0-|----------------------------6h7-|x5
|----------------9---7---9-------|----------------9---7---9-------|
|9---7---9-----------------------|9---7---9-----------------------|
|------------9-7-----------------|------------9-7-----------------|

Final
|-----------------|
|-----------------|
|9---9-9-9-9---9--|
|-----------------|