Sfa (de Sunk loto)
(www.acordesytabs.com)

Sunk Loto - SFA
Standard Tuning (E,A,D,G)
First Verse

G---------------------------------------------
D---------------------------------2-2---------
A--4--------2----------4--------2-----4-4-2-2-
E-----0-2-4---2-2s1s2-----0-2-4---------------

G---------------------------------------------
D---------------------------------------------
A--0-0-0-0-0-0-0-0-0-0-0-0-0-0-2-2------------
E---------------------------------------------

Chorus

G---------------------------------------------
D-----1-3-3--1-3s4-3s1-1h3-3-4----------------
A--4------------------------------------------
E---------------------------------------------

G-------------2-2-2-2-2-2-2-2-----------------
D-----1-3-3-3---------------------------------
A--4------------------------------------------
E---------------------------------------------

Interlude

G---------------------------------------------
D----5---5s6----------------------------------
A------4--------------------------------------
E--3------------------------------------------

then to

G---------------------------------------------
D--------5s6----------------------------------
A------4--------------------------------------
E--3-3----------------------------------------

That's everything, it's not hard to work out what goes where.

Tab by James Beecroft
beecroft@iinet.net.au