Molinos de Viento (de Mago De Oz)
(www.acordesytabs.com)
Simbolos:
---------
  /  -->  Slide
  h  -->  hammer-on
  p  -->  pull-off
 PM  -->  Palm Mute


Verso (Guitarras 1 y 2)
-----                                                             2 veces
|------------------------------------------------------------------------|
|------------------------------------------------------------------------|
|*----------------------------------------------------------------------*|
|*-7--9-9---------9-7-9-9---------9-9-7-7---------7---------5---------7-*|
|--5--7-7-7-7-7-7-7-5-7-7-7-7-7-7-7-7-5-5-5-5-5-5-5---3-3-3-3---5-5-5-5--|
|------------------------------------------------------------------------|
          PM.....         PM.....         PM.....     PM...     PM...

| 0:14 |
Pre-Verso (Guitarras 1 y 2)
---------                                                         2 veces
|------------------------------------------------------------------------|
|------------------------------------------------------------------------|
|*----------------------------------------------------------------------*|
|*-7-9--------------7-9--------------9-7--------------------5---------7-*|
|--5-7--------------5-7--------------7-5--------------3-3-3-3---5-5-5-5--|
|------------------------------------------------------------------------|



| 0:28 |
( Verso )


| 0:42 |
( Acustico )



| 0:56 |
Estribillo (Guitarras 1 y 2)
----------
|-----------------------------------------------------------------|
|-----------------------------------------------------------------|
|-----------------------------------------------------------------|
|--9-9-----9-9-----7-7-----5---5---9-9-----9-9-----7-7-----5---5--|
|--7-7-7-7-7-7-7-7-5-5-5-5-3-3-3---7-7-7-7-7-7-7-7-5-5-5-5-3-3-3--|
|-----------------------------------------------------------------|
       PM.     PM.     PM.  PM         PM.     PM.     PM.  PM

|-----------------------------------------------------------------|
|-----------------------------------------------------------------|
|-----------------------------------------------------------------|
|------------------7-7-----5---5-------------------7--------------|
|--5-5-----5-5-----5-5-5-5-3-3-3---5-5-----5-5-----5--------------|
|--3-3-3-3-3-3-3-3-----------------3-3-3-3-3-3-3-3----------------|
       PM.     PM.     PM.  PM         PM.     PM. 

No estoy muy seguro de este punteo que viene a continuacion.

 Guitarra 1 (punteillo rapido)
|---------------------------------------|
|---------------------------------------|
|----------7-5--------------------------|
|--5-5-7-9------9-9-7-5-5-4--5-5-4---4--|
|----------------------------------7----|
|---------------------------------------|
|                                       |
|Guitarra 2                             |
|---------------------------------------|
|---------------------------------------|
|---------------------------------------|
|---------------------------------------|
|------------------------------------4--|
|------------------------------------2--|

 Guitarras 1 y 2  Fin 
|-------------------|-----|
|-------------------|-----|
|-------------------|-----|
|-------------------|--4--|
|--4-4-4-4---4-4-4--|--2--|
|--2-2-2-2---2-2-2--|-----|


| 1:13 |
Verso 2 (Guitarras 1 y 2)
-------
|-----------------------------------------------------------------|
|-----------------------------------------------------------------|
|-----------------------------------------------------------------|
|--9-9-----9-9-----9-9-9---7-7-----7-7-7---------5-------7--------|
|--7-7-7-7-7-7-7-7-7-7-7-7-5-5-5-5-5-5-5---3-3-3-3-5-5-5-5--------|
|-----------------------------------------------------------------|
       PM.     PM.      PM     PM.         PM...   PM...

|-----------------------------------------------------------------------|
|-----------------------------------------------------------------------|
|-----------------------------------------------------------------------|
|--7-9-9---------9-7-9-9---------9-9-7-7---------7---------5---------7--|
|--5-7-7-7-7-7-7-7-5-7-7-7-7-7-7-7-7-5-5-5-5-5-5-5---3-3-3-3---5-5-5-5--|
|-----------------------------------------------------------------------|
         PM.....         PM.....         PM.....     PM...     PM...



| 1:26 |
( Pre-Verso )


| 1:40 |
( Verso )


| 1:54 |
( Acustico )


| 2:08 |
( Estribillo )



| 2:25 |
Puente (Guitarras 1 y 2)
------
|----------------------------------------------------------------------|
|----------------------------------------------------------------------|
|----------------------------------------------------------------------|
|--9-9-9-9-9-9-7-9---9-9-9-9-9-9-7-5---5-5-5-5-5-5-2-7-5---5---7-7-----|
|--7-7-7-7-7-7-5-7---7-7-7-7-7-7-5-3---3-3-3-3-3-3-0-5-3---3---5-5-----|
|----------------------------------------------------------------------|

|-----------------------------------------------|
|-----------------------------------------------|
|-----------------------------------------------|
|--9-------7-9-------7-5-------2-5-5-------7-7--|
|--7-------5-7-------5-3-------0-3-3-------5-5--|
|-----------------------------------------------|

Lo que viene a continuacion se hace dos veces, la primera vez es
a dos guitarras, como se indica a continuacion, la segunda vez
las dos guitarras tocan a la vez lo que hace la guitarra 1.

| 2:38 |
 Guitarra 1
|---------------------------------------------------------------------|
|---------------------------------------------------------------------|
|*-16-16-16-16-14----------14----------16-16-16-16-14-----------------|
|*----------------17-16-17----17-16-14----------------17-16-17-16-14--|
|---------------------------------------------------------------------|
|---------------------------------------------------------------------|
|                                                                     |
|Guitarra 2                                                           |
|---------------------------------------------------------------------|
|---------------------------------------------------------------------|
|---------------------------------------------------------------------|
|---9-----------------------------------9-----------------------------|
|---7-----------------------------------7-----------------------------|
|---------------------------------------------------------------------|

 Guitarra 1
|-----------------------------------------------------------------------|
|---------------------------------------------------h--p----------------|
|--16-16-16-16-14----------14---------------------12-14-12-------12----*|
|-----------------17-16-17----17-16-14---12-14-16----------16-14----14-*|
|-----------------------------------------------------------------------|
|-----------------------------------------------------------------------|
|                                                                       |
|Guitarra 2                                                             |
|-----------------------------------------------------------------------|
|-----------------------------------------------------------------------|
|-----------------------------------------------------------------------|
|---7------------------------------------5---------5--------------5--5--|
|---5------------------------------------3---------3--------------7--7--|
|-----------------------------------------------------------------------|


| 2:54 |
Solo
----
La parte esta r pida del solo que aqui no esta transcrita la podeis sacar
a partir de la escala de G Mayor.

 Guitarra 1
|-------------------------------------------------------------------|
|--------------------------------------------------------------p----|
|----------------h----------------------..........--14-16-17-17-16--|
|--14--16-17---14-17-16-14-16----.................------------------|
|-------------------------------------------------------------------|
|-------------------------------------------------------------------|
|                                                                   |
|Guitarra 2                                                         |
|-------------------------------------------------------------------|
|-------------------------------------------------------------------|
|-------------------------------------------------------------------|
|--9-9-----9-9-9---9-9-----9-9-9---7-7-----7-7-7---------5-------7--|
|--7-7-7-7-7-7-7-7-7-7-7-7-7-7-7---5-5-5-5-5-5-5---3-3-3-3-5-5-5-5--|
|-------------------------------------------------------------------|
       PM.      PM     PM.             PM.         PM...   PM...

 Guitarra 1
|-------------------------------------------------------------------|
|---------------------15-13-----------------------------------------|
|--17-16-14-16--14-16-------16-14-16-17-16-14-16-14----------14-----|
|---------------------------------------------------17-16-17----17--|
|-------------------------------------------------------------------|
|-------------------------------------------------------------------|
|                                                                   |
|Guitarra 2                                                         |
|-------------------------------------------------------------------|
|-------------------------------------------------------------------|
|-------------------------------------------------------------------|
|-----7--9--9--------------9--7--9--9--------------9--9--7--7-------|
|-----5--7--7--7--7--7--7--7--5--7--7--7--7--7--7--7--7--5--5-------|
|-------------------------------------------------------------------|
               PM . . . .              PM . . . .     

 Guitarra 1
|----------------------------------------|
|----------------------------------------|
|----------------------------------------|
|--16-14-16-17-16-14--12-14-16-17-16-14/-|
|----------------------------------------|
|----------------------------------------|
|                                        |
|Guitarra 2                              |
|----------------------------------------|
|----------------------------------------|
|----------------------------------------|
|------------7----------5----------7-----|
|----5-5-5-5-5----3-3-3-3----5-5-5-5-----|
|----------------------------------------|
     PM.....      PM...      PM...



| 3:08 |
( Acustico )


| 3:22 |
( Acustico )



| 3:36 |
 Guitarras 1 y 2
|-----------------------------------------------------------------|
|-----------------------------------------------------------------|
|-----------------------------------------------------------------|
|--9-9-----9-9-----7-7-----5---5---9-9-----9-9-----7-7-----5---5--|
|--7-7-7-7-7-7-7-7-5-5-5-5-3-3-3---7-7-7-7-7-7-7-7-5-5-5-5-3-3-3--|
|-----------------------------------------------------------------|
       PM.     PM.     PM.  PM         PM.     PM.     PM.  PM

|-----------------------------------------------------------------|
|-----------------------------------------------------------------|
|-----------------------------------------------------------------|
|------------------7-7-----5---5-------------------7--------------|
|--5-5-----5-5-----5-5-5-5-3-3-3---5-5-----5-5-----5--------------|
|--3-3-3-3-3-3-3-3-----------------3-3-3-3-3-3-3-3----------------|
       PM.     PM.     PM.  PM         PM.     PM. 



| 3:50 |
( Estribillo )



| 4:07 |
Fin (Guitarras 1 y 2)
---
|-----------|
|-----------|
|-----------|
|-----------|
|--2-0------|
|------3-0--|





Desarrollo de la cancion
-------------------------
( No se si he dividido bien las secciones )

Verso
Pre-Verso
Verso
Pre-Estribillo (Acustico)
Estribillo
Verso 2
Pre-Verso
Verso
Pre-Estribillo (Acustico)
Estribillo
Puente
Solo
Pre-Estribillo (Acustico)
Pre-Estribillo (Acustico)
Estribillo
Estribillo
Fin



Letra:
-----
Si acaso tu no ves
mas alla de tu nariz
y no oyes a una flor reir.

Si no puedes hablar
sin tener que oir tu voz
utilizando el corazon.

Amigo Sancho, escuchame
no todo tiene aqui un porque
un camino lo hacen los pies.

Hay un mundo por descubrir
y hay una vida que arrancar
de brazos del guion final.

A veces siento al despertar
que el sue¤o es la realidad.

Bebe, danza, sue¤a
siente que el viento
ha sido hecho para ti.
Vive, escucha y habla
usando para ello
el corazon.

Siente que la lluvia
besa tu cara
cuando haces el amor
grita con el alma
grita tan alto
que de tu vida, tu seas
amigo, el unico actor.

Si acaso tu opinion
cabe en un si o un no
y no sabes rectificar.

Si puedes definir
el odio o el amor
amigo que desilusion.

No todo es blanco
o negro. Es gris
todo depende del matiz
busca y aprende a distinguir.

La luna puede calentar
y el sol tus noches, acunar
los arboles mueren de pie.

He visto un manantial llorar
al ver sus aguas ir al mar.

Esto es todo, esta canción va dedicada a ...ya saben quien, a la hermosa señorita frío.