Río del Silencio (de Duncan Dhu)
(www.acordesytabs.com)
Esta tabuladura es toda la que se toca en la cancion. 

Introduccion.

Primer parte.
E--------------------------------------------------------------------
A-----0-------0-------0-------0--------------------------------------
D--------------------------------------------------------------------
G---------2-----2---2-----2-----2---2--------------------------------
B-------2---------2-----2---------2----------------------------------
E-----------0---------------0----------------------------------------

E--------------------------------------------------------------------
A--2-------2-------2-------2---2_4-----------------0-------0---------
D----------------------------------0-------0-------------------------
G------4-----4---4-----4-----4-------2-------2---2-----2-----2---2---
B----4---------4-----4-----------------3-------3-----2---------2-----
E--------2---------------2---------------2---------------0-----------

E--------------------------------------------------------------------
A--2--------------------------------0-------0-------0-------0--------
D----2-----------2-0--------2----------------------------------------
G------1-------1-----2--------1---------2-----2---2-----2-----2---2--
B--------0---0---------3--------0-----2---------2-----2---------2----
E----------0-------------0--------0-------0---------------0----------

E--------------------------------------------------------------------
A--2-------2-------2-------2---2_4-----------------0-------0---------
D----------------------------------0-------0-------------------------
G------4-----4---4-----4-----4-------2-------2---2-----2-----2---2---
B----4---------4-----4-----------------3-------3-----2---------2-----
E--------2---------------2---------------2---------------0-----------

E--------------------------------------------------------------------
A--2--------------------------------0-------0------------------------
D----2-----------2-0--------2----------------------------------------
G------1-------1-----2--------1---------2-----2---2------------------
B--------0---0---------3--------0-----2---------2--------------------
E----------0-------------0--------0-------0--------------------------

E--------------------------------------------------------------------
A--4-------4-------2-------2-----------------------0-------0---------
D----------------------------------0-------2-------------------------
G------7-----7---7-----4-----4---4---2-------1---------2-----2---2---
B----5---------5-----3---------3-------3-------0-----2---------2-----
E--------5---------------2---------------0-------0-------0-----------

E--------------------------------------------------------------------
A--4-------4-------2-------2-----------------------------------------
D----------------------------------0-------2-------------------------
G------7-----7---7-----4-----4---4---2-------1-----------------------
B----5---------5-----3---------3-------3-------0---------------------
E--------5---------------2---------------0-------0-------------------

Segunda parte.
E--------------------------------------------------------------------
A-----0-------0-------0-------0--------------------------------------
D--------------------------------------------------------------------
G---------2-----2---2-----2-----2---2--------------------------------
B-------2---------2-----2---------2----------------------------------
E-----------0---------------0----------------------------------------

E--------------------------------------------------------------------
A--2-------2-------2-------2---2_4-----------------0-------0---------
D----------------------------------0-------0-------------------------
G------4-----4---4-----4-----4-------2-------2---2-----2-----2---2---
B----4---------4-----4-----------------3-------3-----2---------2-----
E--------2---------------2---------------2---------------0-----------

E--------------------------------------------------------------------
A--2--------------------------------0-------0-------0-------0--------
D----2-----------2-0--------2----------------------------------------
G------1-------1-----2--------1---------2-----2---2-----2-----2---2--
B--------0---0---------3--------0-----2---------2-----2---------2----
E----------0-------------0--------0-------0---------------0----------

E--------------------------------------------------------------------
A--2-------2-------2-------2---2_4-----------------0-------0---------
D----------------------------------0-------0-------------------------
G------4-----4---4-----4-----4-------2-------2---2-----2-----2---2---
B----4---------4-----4-----------------3-------3-----2---------2-----
E--------2---------------2---------------2---------------0-----------

E--------------------------------------------------------------------
A--2--------------------------------0-------0------------------------
D----2-----------2-0--------2----------------------------------------
G------1-------1-----2--------1---------2-----2---2------------------
B--------0---0---------3--------0-----2---------2--------------------
E----------0-------------0--------0-------0--------------------------

E--------------------------------------------------------------------
A--4-------4-------2-------2-----------------------0-------0---------
D----------------------------------0-------2-------------------------
G------7-----7---7-----4-----4---4---2-------1---------2-----2---2---
B----5---------5-----3---------3-------3-------0-----2---------2-----
E--------5---------------2---------------0-------0-------0-----------

E--------------------------------------------------------------------
A--4-------4-------2-------2-----------------------------------------
D----------------------------------0-------2-------------------------
G------7-----7---7-----4-----4---4---2-------1-----------------------
B----5---------5-----3---------3-------3-------0---------------------
E--------5---------------2---------------0-------0-------------------

E--------------------------------------------------------------------------------------
A-----------0-----------------0-----------------2--------2---------------2-------------
D--0-----------------0-----------------0-------------------2-----------2---2-----------
G----2--------2--------2--------2--------2--------4----------1-------1-------1---------
B------3--------2--------3--------2--------3--------4----------0---0-----------0---0---
E--------0--------0--------0--------0--------0--------2----------0---------------0-----

E--------------------------------------------------------------------------------------
A-----------0-----------------0-----------------2--------2---------------2-------------
D--0-----------------0-----------------0-------------------2-----------2---2-----------
G----2--------2--------2--------2--------2--------4----------1-------1-------1---------
B------3--------2--------3--------2--------3--------4----------0---0-----------0---0---
E--------0--------0--------0--------0--------0--------2----------0---------------0-----

E--------------------------------------
A--2-----------------------------------
D----2-----------2-0-------2-----------
G------1-------1-----2-------1---------
B--------0---0---------3-------0-------
E----------0-------------0-------0-----

Final.
E-----------------------------------------------------------------------------------
A--0-------0--------4-------4--------2--------2--------------------------0----------
D-------------------------------------------------------0-------2----------2--------
G----2-------2---2------7-----7---7------4-------4---4----2-------1----------2------
B------2-------2------5---------5------3-----------3--------3-------0----------2----
E--------0----------------5----------------2------------------0-------0----------0--


Espero que haya quedado bien y que le entiendan, si tienen alguna duda escribanme: