Salgan al Sol (de Divididos)
(www.acordesytabs.com)
**Esta muy buena canción, es muy fácil, y muy simple, 
masomenos la canción viene asi:

Intro:
G|-------|
D|-------|
A|-------|
E|--(0)--|

Puente:
G|---------|x4
D|---------|
A|---------|
E|-0-0-3-5-|

Verso:
G|---------|x8
D|---------|
A|---------|
E|-0-0-3-5-|

Coro: ('Salgan al Sol, Idiotas...')
G|-----------------------------|
D|-----------------------------|
A|-----------------------------|
E|-111111-111111-111111-111111-|

Verso:
G|---------|x8
D|---------|
A|---------|
E|-0-0-3-5-|

Solo de Guitarra:
G|---------|x8
D|---------|
A|---------|
E|-0-0-3-5-|

Coro: ('Salgan al Sol, Idiotas...')
G|-----------------------------|
D|-----------------------------|
A|-----------------------------|
E|-111111-111111-111111-111111-|

Escuchá la canción para saber el ritmo