Doug theme tune (de Misc television)
(www.acordesytabs.com)

DOUG THEME TUNE

Heres the opening theme tune to the hit TV show "Doug" ... Have fun :)

e|-8-----------------------|-8------------------8------
B|----10---8---------------|----10---8---8-10----------
G|---------------9---7-5---|---------------------------
D|-------------------------|---------------------------
A|-------------------------|---------------------------
E|-------------------------|---------------------------


e|---8---------------------------|
B|-----10---8--------------------|
G|------------------9---7-------5|
D|-------------------------------|
A|-------------------------------|
E|-------------------------------|


Dark_Magician 2002 (nicks_mem@yahoo.co.uk)