Pain divine (de Morbid angel)
(www.acordesytabs.com)

From: George Economou <ge23+@andrew.cmu.edu>

"Pain Divine"  by Morbid Angel
tab by: Ky MacPherson  (pokey@uiuc.edu)
 
 
tune down 1/2 step
 
Eb-------------------||---------------------||
Bb-------------------||---------------------||
Gb-------------------||---------------------||
Db---7---3---5---8---||---/7---3---5---8----||
Ab---7---3---5---8---||---/7---3---5---8----||
Eb---5---1---3---6---||---/5---1---3---6----||
 
 
 
||-----------------|--------------------|-----------------|----------------||
||-----------------|--------------------|-----------------|----------------||
||-----------------|--------------------|-----------------|----------------||
||--3---2---4---2--|--------------------|--3---2---4---2--|----------------||
||--3---2---4---2--|--54--43--32--2--|--3---2---4---2--|--54--4/9--8---||
||--1---0---2---0--|--32--21--1--0--|--1---0---2---0--|--32--2/7--8---||
 
 
 
 trem pick all                 (2nd guitar)
|--------------|--------------|-------------------|-------------------|
|--------------|--------------|-------------------|-------------------|
|--------------|--------------|-------------------|--3---1--------1---|
|--------------|-----2--------|--3--(3)-----------|-(4)-(3)-1(4)-(1)--|
|--3--2--3--0--|--3-----3--0--|-(4)--4--1(4)-4(1)-|-------------------|
|--------------|--------------|-------------------|-------------------|
 
              
 
 
  +1/2 __     __    ___
     _/    _/  \__/   \_
 
||----------------------------||
||----------------------------||
||----------------------------||
||---6-----/9------------7---||
||---6-----/9------------7---||
||---4-----/7------------5---||


     ge23@andrew.cmu.edu            George Economou
     economou@fox.fcasd.edu