Sobrio A Las Piñas (de Divididos)
(www.acordesytabs.com)
Intro, Verso, Puente y Solo de Guitarra *1*:
G|--------------------------|
D|-2---2------------2-------|
A|--0-2----------0-2--------|
E|-------0-3-5-0------03-50-|

Coro:
G|---------------|--------------------------|---------------|
D|---------------|-2---2------------2-------|---------------|
A|------------5~-|--0-2----------0-2--------|------------5~-|
E|-32-32-32-3----|-------0-3-5-0------03-50-|-32-32-32-3----|

Solo de Guitarra *2*:
G|-----------------------------------|
D|-----------------------------------|
A|-----------------------------------|
E|-7-7/--7-7/--7-7/-7-7/-7-55-33-22-|

La Canción Viene Así:
* Intro (x1)
* Verso (x8)
* Coro (x1)  
* Puente (x1)
* Verso (x8)
* Coro (x1)
* Solo de Guitarra *1* (x1)
* Solo de Guitarra *2* (x4) 
* Verso (Hasta el Final)

Escuchá la canción para saber el ritmo