Sol De Medianoche (de Salón Victoria)
(www.acordesytabs.com)
       D           G           A           Em
G|-----------|-----------|-----------|------------|
D|-----4-7---|-----------|-----------|--------9---|
A|---5-------|-----2-5---|-----4-7---|---7-10-----|
E|-----------|---3-------|---5-------|------------|

Lento

        D             G             A             Em
G|-------------|-------------|-------------|---------------|
D|-----4-7-4---|-------------|-------------|--------9------|
A|---5---------|-----2-5-2---|-----4-7-4---|---7-10---10---|
E|-------------|---3---------|---5---------|---------------|

Ska

Solo sigan mi Tab para Guitarra.
Escuchen chido la rola.