Solo a ti (de Joven sensacion)
(www.acordesytabs.com)
Intro

e|-3------------3.-3----2-----7------------|  
B|--3---------3-----3-----5-8---8-10/12.---|
G|---4----3/4--------4---------------------|  
D|----5-----------------0------------------|  
A|-----5-----------------------------------|
E|------3----------------------------------|

e|-7-8--10-8--7-5-3---------------------------------10/12-10..-|  
B|-8-10-12-10-8-7-5---8/10.-10/8-8-8-6/4-4.-3/4-3..------------|
G|-------------------------------------------------------------|  
D|-------------------------------------------------------------|  
A|-------------------------------------------------------------|
E|-------------------------------------------------------------|  

		     *(Esta parte la hace el piano, está resumida)
e|--------------------------------------------|  
B|-----10/12-10------*12-10-------------------|
G|-6-9----------------------12-11-9-7---------|  
D|------------------------------------10-7-9--|  
A|--------------------------------------------|
E|--------------------------------------------|

G		D
Te encontré, en una tarde de Abril
Em			C
te encontré, con aquel uniforme gris
	Cm			G		D		Riff 1
en una fría y extensa sala de colegio nacional, de colegio nacional.

G		D
Te encontré, tu eras ya una mujer
Em		C
y yo tan solo era un niño de 16
	Cm			G
que jugaba a ser de mundo, que jugaba a ser mayor
	D
y que perdió todo al final.

Coro
G	D		Em		     C			D
Solo a ti, solo a ti te amaré, yo jamás te olvidé, yo jamás de borré, yo jamás.
G	D			Em
Solo a ti, solo a ti podré amar, que a nadie más que yo querré, 
	C			D
que a nadie más yo amaré, que a nadie más.

G		D
Te miré, y me perdí en tu mirar
Em		C
en tu sonrisa, en tu forma de caminar
Cm		
en tu abrir y cerrar de ojos
G			D
para mañana será, no hay problema mayor.

G			D
Me enamoré sin siquiera imaginarlo
Em			C
sin siquiera haberlo soñado (haberlo soñado)
Cm			
como se sueñan las sonrisas
G
y el tiempo sigue dando
	D		Em
la razón al confirmar, no encontraré otra igual
C
que tus manos son las únicas
	Cm
que me hacen suspirar

G			D
y que tu boca y que mi boca
Em
se comprendan sin hablar 
C		     
sin siquiera saborear
      Cm	      G				D	(Riff 2)
el dolor, el dolor, de un amor que nunca se tuvo.

Coro


Riffs:

 
Riff 1
e|----------------------|  
B|-10/12.-12-12-12-10..-|
G|----------------------|  
D|----------------------|  
A|----------------------|
E|----------------------|

Riff 2
e|---------------------------------|  
B|-----5-3---5-3---5-3---5-3---3..-|
G|-2-4-----4-----4-----4-----4-----|  
D|---------------------------------|  
A|---------------------------------|
E|---------------------------------|


*El Riff 2 no es exacto, pero por alli va.