You (de Gob)
(www.acordesytabs.com)


Song: You
Band: Gob
Tabbed By: Mit (send_in_the_klowns@hotmail.com)

e|--------------------------------------------------------------------|
B|--------------------------------------------------------------------|
G|-4------------------------------------------------------------------|
D|-4-4---4------------------------------------------------------------|
A|-2-4-2-4------------------------------------------------------------|
E|---2-0-2------------------------------------------------------------|

e|--------------------------------------------------------------------|
B|--------12-11-12-11-------------------------------------------------|
G|-4------------------11-9-8-9-8--------------------------------------|
D|-4---4-6-7---------------------9-11-13-9-11-11-9-11-9-13-13-9-9-11-9|
A|-2-2-4-6-7----------------------------------------------------------|
E|---0-2-4-5-------these-things-are-done-at-the-same-time-------------|

e|--------------------------------------------------------------------|
B|--------------------------------------------------------------------|
G|-6------------------------------------------------------------------|
D|-6-2-4-6-7----------------------------------------------------------|
A|-4-2-4-6-7----------------------------------------------------------|
E|---0-2-4-5----------------------------------------------------------|
Play this over a three times