I will be there for you (de Bon jovi)
(www.acordesytabs.com)

Bon Jovi - I'll Be There For You
Tabbed by:  Shaun Geisert
Verse 1
G|---------------------------------------------------|
D|---------------------------------------------------|
A|-------------5-55-025-55----------------5-55-0-2-5-|
E|-0-00-023-3-5-------------3-0-00-023-3-5-----------|
G|---------------------------------------------------|
D|---------------------------------------------------|
A|-------------5-55-025-55---------------------------|
E|-0-0-023-3-5-------------3-0-0-023-33-345-55-0305--|
Chorus X2
G|--------------------------|
D|--------------------------|
A|-5-455-4-2-22-------0-3-5-|
E|-------------023-33----3--|
Verse 2
G|------------------------------------------------------------------------------------------|
D|------------------------------------------------------------------------------------------|
A|------------5-5-025-5----------------20-00-0-0--------2-4-5-5-42-22-0---------------------|
E|-0-0-023-3-5----------3-0-00-023-3-3--------0--3-33-35---------------3-33-3-33-35-355-0305|
Chorus X2
G|--------------------------|
D|--------------------------|
A|-5-455-4-2-22-------0-3-5-|
E|-------------023-33----3--|
Solo
G|--------------------------------------------------------------------|
D|--------------------------------------------------------------------|
A|-55-4-2-22----------------2-4-5-355-3-2-0-22-0----------------------|
E|-----------023-33-35-55-35--------------------3-233-35-5-555-0305-35|
Verse 2
G|-----------------------------------------|
D|-----------------------------------------|
A|---------2-4-5-4-42-22-2-0---------------|
E|-3-33-35--------------2---3-33-33-33-025-|
Chorus X2
G|--------------------------|
D|--------------------------|
A|-5-455-4-2-22-------0-3-5-|
E|-------------023-33----3--|
Outro
G|--------------------------------------------------------------------------|
D|--------------------------------------------------------------------------|
A|--7-6-4-244-2-0-00-012-5-0--7-7-6-4-244-2-0-00-012-50-----234-44-2-0-00-02|
E|-0-------------0----------0----------------0---------0-00-----------0-----|
Chorus X2
G|------------------------------|
D|------------------------------|
A|-5-0---2-4-244-2-0--0-2--5-0--|
E|----0-0------------0---------0|