Te estaré esperando allí (de Bon Jovi)
(www.acordesytabs.com)
intro:

e|-------------------------------------------------
B|-------------------------------------------------
G|5/7-7-7/9-9-9/12-12-12/11--5/7-7-7/9-9-9/12-12-11
D|-------------------------------------------------
A|-------------------------------------------------
E|-------------------------------------------------

e[-------------------------------------------------------
B[-------------------------------------------------------
G[--9~~~~~~~~~~~~~~~~~~~~~~------------------------------
D[--9~~~~~~~~~~~~~~~~~~~~~~------------------------------
A[--7~~~~~~~~~~~~~~~~~~~~~~------------------------------
E[--0----------------------------------------------------

e[----------------------------------------------
B[---3s5-5s3-3----------------------------------
G[---2s4-4s2-2--2h4p2---------------------------
D[--------------2h4p2--2h4----7~~~~~~-----------
A[---------------------2h4----5~~~~~~-----------
E[----------------------------------------------

e[------------------------------|--7/10--10-10--7--5/7---
B[----------------5~~-----------|--7/10--10-10--7--5/7---
G[----------------4~~-----------|------------------------
D[----------------2~~-----------|------------------------
A[------------------------------|------------------------
E[------------------------------|------------------------

e[----------------------|------------------------------|-7/10--10-10--7--5/7-
B[----------------5~~---|---------------3h5p3----------|-7/10--10-10--7--5/7-
G[----------------4~~---|------------------------------|---------------------
D[----------------2~~---|--------2h4p2~--------2h4p2~~-|---------------------
A[----------------------|------------------------------|---------------------
E[----------------------|-0-2-3------------------------|---------------------

e[--(19)----------------------------------
B[------(19)---------(19)~~~~-------------
G[----------(19)--------(19)~~~~----------
D[--------------(19)----------------------
A[----------------------------------------
E[----------------------------------------

e[-------9---------10-------------12-----------14~~-----
B[------------------------------------------------------
G[--7h9----9--9/11-----11--11/12-----12--12/14----------
D[------------------------------------------------------
A[------------------------------------------------------
E[------------------------------------------------------

CORO:
e[-----------------------------------------------------------
B[--3--------------------------------------------------------
G[--2-------------4------------------------------5-----------
D[--0-------------4----------5---------7---------5------5----
A[--0-------------2---2-2----5---------7-----xx--3--xx--5----
E[----------------2---2-2----3---------5-----xx-----xx--3----

intro...

VERSO:
e[----------------------------------
B[-----------------5~~------3h5p3---
G[-----------------4~~--------------
D[-----------------2~~--------------
A[----------------------------------
E[----------------------------------

e[-------------10-------------12-----------14------------12-------
B[----------------------------------------------------------------
G[--------9/11-----11--11/12-----12--12/14----14--1412-------11~~
D[----------------------------------------------------------------
A[----------------------------------------------------------------
E[----------------------------------------------------------------

e[--(19)---------------------------------
B[------(19)---------(19)~~~~------------
G[----------(19)--------(19)~~~~---------
D[--------------(19)---------------------
A[---------------------------------------
E[---------------------------------------

e[--------------|-------|--------|--------|----------|-----------
B[--------------|-------|--------|--------|----------|-----------
G[--------------|-------|--------|--------|----------|-----------
D[--------------|-------|--------|--------|----------|-----------
A[-----7--------|---5---|----7---|--9--12-|-12~~--12-|---9-------
E[-----5--------|---3---|----5---|--7---9-|-10~~---9-|---7-------

e[----------------|----------------------
B[----------------|----------------------
G[----------------|----------------------
D[----------------|----------------------
A[-----5----------|--------------7~~-----
E[-----3----------|--------------5~~-----

solo:
e[-----------------------------|--------------------------------
B[-----------------------------|--------------------------------
G[--9fb(11)r---9p7---7~~---7~~-|--9fb(11)r---9p7---7~~-7--------
D[-----------------9-----9-----|-----------------9-------9~~----
A[-----------------------------|--------------------------------
E[-----------------------------|--------------------------------

e[-----------------|--------------------------------------------
B[-----------------|---------------------------7----------------
G[-----7-7-----7-7-|-----7---7-9fb(11)r9~~-7-----9-7~~~---------
D[-7h9-----7h9-----|-7h9---9-----------------9------------------
A[-----------------|--------------------------------------------
E[-----------------|--------------------------------------------

e[----------------------------------------------
B[----------------------------------------------
G[----------------------------------------------
D[----------------------------------------------
A[----7/9/7/5-7-7/9/7/10-/9/7-------------------
E[----------------------------------------------(x2)

e[-------|--------|--------|----------|-----------
B[-------|--------|--------|----------|-----------
G[-------|--------|--------|----------|-----------
D[-------|--------|--------|----------|-----------
A[---5---|----7---|--9--12-|-12~~--12-|---9-------
E[---3---|----5---|--7---9-|-10~~---9-|---7-------

e[----------------|----------------------------|
B[----------------|----------------------------|
G[----------------|----------------------------|
D[----------------|----------------------------|
A[-----5----------|--------------7~~-----------|
E[-----3----------|--------------5~~-----------|

CORO...
intro...