Nene de antes (de Divididos)
(www.acordesytabs.com)
Hola que tal!! soy mariano
este es mi primer tab de guitarra y toco hace poco, el tab no es perfecvto pero suena muy bien!


**INTRO: guitarra**
1)---------------|------------------------------------------------------------------|
2)---------------|------7h9p7--------------8h10p8-----------------------------------|
3)--------7-9b-7-|9bb-7-------9h7-9-9bb--7--------9p7-9b-7--------------7/9/7-x-9b--|
4)----7/9--------|-----------------------------------------9p7----------7/9/7-x-9b--|
5)---------------|---------------------------------------------9p7-7-5--------------|
6)---------------|------------------------------------------------------------------|

D                            Bm                           G5                           F5     
Peine, cardenales bajo el chaparron, aves raras de un pasado por agua otra vez al bylcreem
D                                 Bm                           G5                           F5
Ponele, las vbentosas al hombre invisible, que el chiflete debajo de la puerta no para de sonar


**ESTRIBILLO**: 'nene de antes..'
1)----------------------------------------------------------------------------------------------------------------------|
2)----------------------------------7--7---7----------------------------------7---7------------------7--7---7------7bb--|
3)--9bb-9b-7----9p7-----------------7--7h9-7--9-7----9b-7--------------7-9-7--7h9-7------7-9b-7------7--7h9-7--9-7------|
4)-----------9------9p7---------7h9---------------9b------9p7------7-9---------------7-9---------7h9--------------------|
5)----------------------9p7-----------------------------------9p7-------------------------------------------------------|
6)--------------------------9p7-----------------------------------------------------------------------------------------|

D                          Bm                         G5                             F5  
Balcón, de inconclusa serenata fue, busco cama, vacaciones y llantos, el turista mortal
D                          Bm                        G5                                F5    
Sudaba como una ballena en acensor a la consejera de esta locura se le fruncio el frances


**ESTRIBILLO**: 'nene de antes..'
1)----------------------------------------------------------------------------------------------------------------------|
2)----------------------------------7--7---7----------------------------------7---7------------------7--7---7------7bb--|
3)--9bb-9b-7----9p7-----------------7--7h9-7--9-7----9b-7--------------7-9-7--7h9-7------7-9b-7------7--7h9-7--9-7------|
4)-----------9------9p7---------7h9---------------9b------9p7------7-9---------------7-9---------7h9--------------------|
5)----------------------9p7-----------------------------------9p7-------------------------------------------------------|
6)--------------------------9p7-----------------------------------------------------------------------------------------|

**el punteo no lo pude sacar... si alguien lo puede sacar por favor transcribalo**
       G5                               F5 
Tuve ataques de nervios pero estaba modeeeernooo
       G5                            F5  
Con tapones limados, me sacaron la roooojaaaa


**No toca nada**: 'peine....'

**despues solo repite el estribillo pero mezclandolo un poco pero es facil

bueno espero que les sirba suerte!!!!