Ni heeray (de Junoon)
(www.acordesytabs.com)

Ni Heeray
by Junoon

1) Repeat twice
                                Bend
e----------------------------------------------------------------
b--------------------7--9b11b9-7---------------------------------
G--7h9-9--7h9-9--7h9-------------9-7-----------------------------
D----------------------------------------------------------------
A----------------------------------------------------------------
E----------------------------------------------------------------

2)
                                Bend
e----------------------------------------------------------------
b--------------------7--9b11b9-7----------7--9-9-----------------
G--7h9-9--7h9-9--7h9-------------9-7--7-7--------7h9-9-9-9-------
D----------------------------------------------------------------
A----------------------------------------------------------------
E----------------------------------------------------------------


Usman Haroon
usmanh_81@yahoo.com