Ortega y Gases (de Divididos)
(www.acordesytabs.com)
+ Tablaturas de la Vanguardia del Rock          +
+ http://www.geocities.com/BourbonStreet/6195/  +
+++++++++++++++++++++++++++++++++++++++++++++++++

 D           A       E        A
Comprándolo todo, Ortega y gases.
 D         A         E         A
Sonrisa de ida, la fiesta empezó.
   D                           A
Quieto el móvil, calle para atrás.
 D                              A
Gente germinando, esperando el sol.
 D            A       E          A
Nicho con cortina mutual sin carnet,
D            A           E          A
un manual de ida, un manual pa' volver.


De la uva al vino, de la papa al puré
de la papa al vino y al voto después.
Entre chiste y chiste se me confundió
si me lleva el pingo o el pingo soy yo.
La moral ajena mostró el almidón.
Chacarera duerme cuando sale el sol.


    =----------------|---------|----0-------=
T   =---7-9-7-7-5-2--|--2-0-0--|--3-0-2-2---=
    =---7-9-7-7-6-2--|--2-0-1--|--4---2-2---=
A   =----------------|---------|------------=
    =----------------|---------|------------=
B   =----------------|---------|------------=


    =----------------|------0-0-5-0--------=
T   =---7-9-7-7-5-2--|--2-3-2-2-5-2-2-2----=
    =---7-9-7-7-6-2--|--2-4---------2-2----=
A   =----------------|---------------------=
    =----------------|---------------------=
B   =----------------|---------------------=