Vacaciones Permanentes (de Attaque 77)
(www.acordesytabs.com)
INTRO :  (Sobre  G / D / F / C / G - G / D / F / C / D)
e|-----------------------------------------------|
B|-----------------------------------------------|
G|-----------------------------------------------|
D|-5----5-7-9/7-9---4-5-7-5----------------------|
A|-----5---------------------5-7-5-7-5-7-5-7-5---|
E|-----------------------------------------------|

G                     D                            Em                Bm     D 
Vámonos,  ¿qué diablos hago acá,   en el medio de toda esta gente?
Vámonos, ¿qué hace alguien como vos, en el medio de toda esta gente
C                      D                      Em                          A
   Tan impersonal, viciada de más?  Me quiero largar
                 G        C                      D      C
   Hoy es viernes,   siempre es viernes 


Vámonos lejos de la ciudad a un lugar donde todo es diferente
Nuestra piel esta tan suave hoy como para sentirnos mutuamente 
Desnudos frente al mar dan ganas de hablar promesas de más: 
“voy a amarte para siempre”

Em              C          G                           D
    estoy cansado ya, igual no puedo parar
Em              C                                                       D
    tu cola esta tan bien que da ganas de mordértela.


SOLO:   (sobre   G / D / E / B / D  x2)
e|---------------------------------------12----------------------
B|--------------8-8-8---------------15-15--15--------------------
G|-----7-7-7---9---9----14-12-14(16)---------14(16)14------------
D|-5-/9---9-------------------------------------------12-14(16)--
A|---------------------------------------------------------------
E|---------------------------------------------------------------

e|-------------------------------------------------------------------------------
B|-------------------15----------------------------------------------------------
G|-14(16)-14(16)14-12---14(16)14-----12-14-14(16)14-12---------------------------
D|------------------------------12-14----------------14-12-12(14)12--12----------
A|-----------------------------------------------------------------14—--12-14-12-
E|-------------------------------------------------------------------------------

C                    D                              Em                      A
    Y me sale pensar que el tiempo quizás se detenga ya...
             G        C            D         C
    Vacaciones     Permanentes.

G / D / F / C   x4  (punteo de Intro)  G